ISO-10303-21;
HEADER;
FILE_DESCRIPTION((''),'2;1');
FILE_NAME('ZJ-05','2022-03-21T',('Administrator'),(''),
'PRO/ENGINEER BY PARAMETRIC TECHNOLOGY CORPORATION, 2008380',
'PRO/ENGINEER BY PARAMETRIC TECHNOLOGY CORPORATION, 2008380','');
FILE_SCHEMA(('CONFIG_CONTROL_DESIGN'));
ENDSEC;
DATA;
#1=DIRECTION('',(-1.E0,0.E0,0.E0));
#2=VECTOR('',#1,2.8E1);
#3=CARTESIAN_POINT('',(1.4E1,0.E0,-3.E0));
#4=LINE('',#3,#2);
#5=DIRECTION('',(0.E0,0.E0,-1.E0));
#6=VECTOR('',#5,4.1E1);
#7=CARTESIAN_POINT('',(1.4E1,0.E0,-3.E0));
#8=LINE('',#7,#6);
#9=CARTESIAN_POINT('',(0.E0,0.E0,-4.4E1));
#10=DIRECTION('',(0.E0,1.E0,0.E0));
#11=DIRECTION('',(1.E0,0.E0,0.E0));
#12=AXIS2_PLACEMENT_3D('',#9,#10,#11);
#14=DIRECTION('',(0.E0,0.E0,1.E0));
#15=VECTOR('',#14,4.1E1);
#16=CARTESIAN_POINT('',(-1.4E1,0.E0,-4.4E1));
#17=LINE('',#16,#15);
#18=CARTESIAN_POINT('',(0.E0,0.E0,-4.86E1));
#19=DIRECTION('',(0.E0,1.E0,0.E0));
#20=DIRECTION('',(1.E0,0.E0,0.E0));
#21=AXIS2_PLACEMENT_3D('',#18,#19,#20);
#23=CARTESIAN_POINT('',(0.E0,0.E0,-4.86E1));
#24=DIRECTION('',(0.E0,1.E0,0.E0));
#25=DIRECTION('',(-1.E0,0.E0,0.E0));
#26=AXIS2_PLACEMENT_3D('',#23,#24,#25);
#28=CARTESIAN_POINT('',(-1.4E1,3.7E1,-3.E0));
#29=DIRECTION('',(-1.E0,0.E0,0.E0));
#30=DIRECTION('',(0.E0,0.E0,1.E0));
#31=AXIS2_PLACEMENT_3D('',#28,#29,#30);
#33=CARTESIAN_POINT('',(-1.4E1,3.E0,-3.E0));
#34=DIRECTION('',(-1.E0,0.E0,0.E0));
#35=DIRECTION('',(0.E0,-1.E0,0.E0));
#36=AXIS2_PLACEMENT_3D('',#33,#34,#35);
#38=DIRECTION('',(0.E0,1.E0,0.E0));
#39=VECTOR('',#38,2.7E0);
#40=CARTESIAN_POINT('',(-1.4E1,0.E0,-4.4E1));
#41=LINE('',#40,#39);
#42=DIRECTION('',(0.E0,0.E0,1.E0));
#43=VECTOR('',#42,4.13E1);
#44=CARTESIAN_POINT('',(-1.4E1,2.7E0,-4.4E1));
#45=LINE('',#44,#43);
#46=DIRECTION('',(0.E0,1.E0,0.E0));
#47=VECTOR('',#46,3.46E1);
#48=CARTESIAN_POINT('',(-1.4E1,2.7E0,-2.7E0));
#49=LINE('',#48,#47);
#50=DIRECTION('',(0.E0,0.E0,1.E0));
#51=VECTOR('',#50,4.13E1);
#52=CARTESIAN_POINT('',(-1.4E1,3.73E1,-4.4E1));
#53=LINE('',#52,#51);
#54=DIRECTION('',(0.E0,1.E0,0.E0));
#55=VECTOR('',#54,2.7E0);
#56=CARTESIAN_POINT('',(-1.4E1,3.73E1,-4.4E1));
#57=LINE('',#56,#55);
#58=CARTESIAN_POINT('',(1.4E1,3.7E1,-3.E0));
#59=DIRECTION('',(1.E0,0.E0,0.E0));
#60=DIRECTION('',(0.E0,1.E0,0.E0));
#61=AXIS2_PLACEMENT_3D('',#58,#59,#60);
#63=DIRECTION('',(0.E0,0.E0,1.E0));
#64=VECTOR('',#63,4.13E1);
#65=CARTESIAN_POINT('',(1.4E1,3.73E1,-4.4E1));
#66=LINE('',#65,#64);
#67=DIRECTION('',(0.E0,1.E0,0.E0));
#68=VECTOR('',#67,3.46E1);
#69=CARTESIAN_POINT('',(1.4E1,2.7E0,-2.7E0));
#70=LINE('',#69,#68);
#71=DIRECTION('',(0.E0,0.E0,1.E0));
#72=VECTOR('',#71,4.13E1);
#73=CARTESIAN_POINT('',(1.4E1,2.7E0,-4.4E1));
#74=LINE('',#73,#72);
#75=CARTESIAN_POINT('',(1.4E1,3.E0,-3.E0));
#76=DIRECTION('',(1.E0,0.E0,0.E0));
#77=DIRECTION('',(0.E0,0.E0,1.E0));
#78=AXIS2_PLACEMENT_3D('',#75,#76,#77);
#80=DIRECTION('',(0.E0,1.E0,0.E0));
#81=VECTOR('',#80,3.4E1);
#82=CARTESIAN_POINT('',(1.4E1,3.E0,0.E0));
#83=LINE('',#82,#81);
#84=DIRECTION('',(1.E0,0.E0,0.E0));
#85=VECTOR('',#84,2.8E1);
#86=CARTESIAN_POINT('',(-1.4E1,4.E1,-3.E0));
#87=LINE('',#86,#85);
#88=DIRECTION('',(0.E0,0.E0,1.E0));
#89=VECTOR('',#88,4.1E1);
#90=CARTESIAN_POINT('',(-1.4E1,4.E1,-4.4E1));
#91=LINE('',#90,#89);
#92=CARTESIAN_POINT('',(0.E0,4.E1,-4.4E1));
#93=DIRECTION('',(0.E0,1.E0,0.E0));
#94=DIRECTION('',(1.E0,0.E0,0.E0));
#95=AXIS2_PLACEMENT_3D('',#92,#93,#94);
#97=DIRECTION('',(0.E0,0.E0,-1.E0));
#98=VECTOR('',#97,4.1E1);
#99=CARTESIAN_POINT('',(1.4E1,4.E1,-3.E0));
#100=LINE('',#99,#98);
#101=CARTESIAN_POINT('',(0.E0,4.E1,-4.86E1));
#102=DIRECTION('',(0.E0,1.E0,0.E0));
#103=DIRECTION('',(1.E0,0.E0,0.E0));
#104=AXIS2_PLACEMENT_3D('',#101,#102,#103);
#106=CARTESIAN_POINT('',(0.E0,4.E1,-4.86E1));
#107=DIRECTION('',(0.E0,1.E0,0.E0));
#108=DIRECTION('',(-1.E0,0.E0,0.E0));
#109=AXIS2_PLACEMENT_3D('',#106,#107,#108);
#111=CARTESIAN_POINT('',(0.E0,3.73E1,-4.4E1));
#112=DIRECTION('',(0.E0,1.E0,0.E0));
#113=DIRECTION('',(1.E0,0.E0,0.E0));
#114=AXIS2_PLACEMENT_3D('',#111,#112,#113);
#116=DIRECTION('',(0.E0,1.E0,0.E0));
#117=VECTOR('',#116,2.7E0);
#118=CARTESIAN_POINT('',(1.4E1,3.73E1,-4.4E1));
#119=LINE('',#118,#117);
#120=CARTESIAN_POINT('',(0.E0,2.7E0,-4.4E1));
#121=DIRECTION('',(0.E0,1.E0,0.E0));
#122=DIRECTION('',(1.E0,0.E0,0.E0));
#123=AXIS2_PLACEMENT_3D('',#120,#121,#122);
#125=DIRECTION('',(0.E0,1.E0,0.E0));
#126=VECTOR('',#125,2.7E0);
#127=CARTESIAN_POINT('',(1.4E1,0.E0,-4.4E1));
#128=LINE('',#127,#126);
#129=DIRECTION('',(1.E0,0.E0,0.E0));
#130=VECTOR('',#129,2.8E1);
#131=CARTESIAN_POINT('',(-1.4E1,3.73E1,-2.7E0));
#132=LINE('',#131,#130);
#133=CARTESIAN_POINT('',(0.E0,3.73E1,-4.86E1));
#134=DIRECTION('',(0.E0,1.E0,0.E0));
#135=DIRECTION('',(1.E0,0.E0,0.E0));
#136=AXIS2_PLACEMENT_3D('',#133,#134,#135);
#138=CARTESIAN_POINT('',(0.E0,3.73E1,-4.86E1));
#139=DIRECTION('',(0.E0,1.E0,0.E0));
#140=DIRECTION('',(-1.E0,0.E0,0.E0));
#141=AXIS2_PLACEMENT_3D('',#138,#139,#140);
#143=CARTESIAN_POINT('',(0.E0,2.E1,-2.7E0));
#144=DIRECTION('',(0.E0,0.E0,-1.E0));
#145=DIRECTION('',(0.E0,1.E0,0.E0));
#146=AXIS2_PLACEMENT_3D('',#143,#144,#145);
#148=CARTESIAN_POINT('',(0.E0,2.E1,-2.7E0));
#149=DIRECTION('',(0.E0,0.E0,-1.E0));
#150=DIRECTION('',(0.E0,-1.E0,0.E0));
#151=AXIS2_PLACEMENT_3D('',#148,#149,#150);
#153=DIRECTION('',(1.E0,0.E0,0.E0));
#154=VECTOR('',#153,2.8E1);
#155=CARTESIAN_POINT('',(-1.4E1,2.7E0,-2.7E0));
#156=LINE('',#155,#154);
#157=CARTESIAN_POINT('',(0.E0,2.7E0,-4.86E1));
#158=DIRECTION('',(0.E0,1.E0,0.E0));
#159=DIRECTION('',(1.E0,0.E0,0.E0));
#160=AXIS2_PLACEMENT_3D('',#157,#158,#159);
#162=CARTESIAN_POINT('',(0.E0,2.7E0,-4.86E1));
#163=DIRECTION('',(0.E0,1.E0,0.E0));
#164=DIRECTION('',(-1.E0,0.E0,0.E0));
#165=AXIS2_PLACEMENT_3D('',#162,#163,#164);
#167=DIRECTION('',(0.E0,-1.E0,0.E0));
#168=VECTOR('',#167,2.7E0);
#169=CARTESIAN_POINT('',(5.2E0,2.7E0,-4.86E1));
#170=LINE('',#169,#168);
#171=DIRECTION('',(0.E0,-1.E0,0.E0));
#172=VECTOR('',#171,2.7E0);
#173=CARTESIAN_POINT('',(5.2E0,4.E1,-4.86E1));
#174=LINE('',#173,#172);
#175=DIRECTION('',(0.E0,-1.E0,0.E0));
#176=VECTOR('',#175,2.7E0);
#177=CARTESIAN_POINT('',(-5.2E0,2.7E0,-4.86E1));
#178=LINE('',#177,#176);
#179=DIRECTION('',(0.E0,-1.E0,0.E0));
#180=VECTOR('',#179,2.7E0);
#181=CARTESIAN_POINT('',(-5.2E0,4.E1,-4.86E1));
#182=LINE('',#181,#180);
#183=DIRECTION('',(0.E0,0.E0,1.E0));
#184=VECTOR('',#183,2.7E0);
#185=CARTESIAN_POINT('',(0.E0,2.3E1,-2.7E0));
#186=LINE('',#185,#184);
#187=DIRECTION('',(1.E0,0.E0,0.E0));
#188=VECTOR('',#187,2.8E1);
#189=CARTESIAN_POINT('',(-1.4E1,3.7E1,0.E0));
#190=LINE('',#189,#188);
#191=DIRECTION('',(-1.E0,0.E0,0.E0));
#192=VECTOR('',#191,2.8E1);
#193=CARTESIAN_POINT('',(1.4E1,3.E0,0.E0));
#194=LINE('',#193,#192);
#195=DIRECTION('',(0.E0,1.E0,0.E0));
#196=VECTOR('',#195,3.4E1);
#197=CARTESIAN_POINT('',(-1.4E1,3.E0,0.E0));
#198=LINE('',#197,#196);
#199=CARTESIAN_POINT('',(0.E0,2.E1,0.E0));
#200=DIRECTION('',(0.E0,0.E0,-1.E0));
#201=DIRECTION('',(0.E0,1.E0,0.E0));
#202=AXIS2_PLACEMENT_3D('',#199,#200,#201);
#204=CARTESIAN_POINT('',(0.E0,2.E1,0.E0));
#205=DIRECTION('',(0.E0,0.E0,-1.E0));
#206=DIRECTION('',(0.E0,-1.E0,0.E0));
#207=AXIS2_PLACEMENT_3D('',#204,#205,#206);
#209=DIRECTION('',(0.E0,0.E0,1.E0));
#210=VECTOR('',#209,2.7E0);
#211=CARTESIAN_POINT('',(0.E0,1.7E1,-2.7E0));
#212=LINE('',#211,#210);
#213=CARTESIAN_POINT('',(1.4E1,0.E0,-4.4E1));
#214=CARTESIAN_POINT('',(-1.4E1,0.E0,-4.4E1));
#215=VERTEX_POINT('',#213);
#216=VERTEX_POINT('',#214);
#217=CARTESIAN_POINT('',(1.4E1,4.E1,-4.4E1));
#218=CARTESIAN_POINT('',(-1.4E1,4.E1,-4.4E1));
#219=VERTEX_POINT('',#217);
#220=VERTEX_POINT('',#218);
#221=CARTESIAN_POINT('',(1.4E1,3.73E1,-4.4E1));
#222=CARTESIAN_POINT('',(-1.4E1,3.73E1,-4.4E1));
#223=VERTEX_POINT('',#221);
#224=VERTEX_POINT('',#222);
#225=CARTESIAN_POINT('',(1.4E1,2.7E0,-4.4E1));
#226=CARTESIAN_POINT('',(-1.4E1,2.7E0,-4.4E1));
#227=VERTEX_POINT('',#225);
#228=VERTEX_POINT('',#226);
#229=CARTESIAN_POINT('',(-1.4E1,3.73E1,-2.7E0));
#230=VERTEX_POINT('',#229);
#231=CARTESIAN_POINT('',(-1.4E1,2.7E0,-2.7E0));
#232=VERTEX_POINT('',#231);
#233=CARTESIAN_POINT('',(1.4E1,3.73E1,-2.7E0));
#234=VERTEX_POINT('',#233);
#235=CARTESIAN_POINT('',(1.4E1,2.7E0,-2.7E0));
#236=VERTEX_POINT('',#235);
#237=CARTESIAN_POINT('',(1.4E1,4.E1,-3.E0));
#238=CARTESIAN_POINT('',(1.4E1,3.7E1,0.E0));
#239=VERTEX_POINT('',#237);
#240=VERTEX_POINT('',#238);
#241=CARTESIAN_POINT('',(-1.4E1,3.7E1,0.E0));
#242=VERTEX_POINT('',#241);
#243=CARTESIAN_POINT('',(-1.4E1,4.E1,-3.E0));
#244=VERTEX_POINT('',#243);
#245=CARTESIAN_POINT('',(-1.4E1,0.E0,-3.E0));
#246=CARTESIAN_POINT('',(-1.4E1,3.E0,0.E0));
#247=VERTEX_POINT('',#245);
#248=VERTEX_POINT('',#246);
#249=CARTESIAN_POINT('',(1.4E1,3.E0,0.E0));
#250=VERTEX_POINT('',#249);
#251=CARTESIAN_POINT('',(1.4E1,0.E0,-3.E0));
#252=VERTEX_POINT('',#251);
#253=CARTESIAN_POINT('',(5.2E0,0.E0,-4.86E1));
#254=CARTESIAN_POINT('',(-5.2E0,0.E0,-4.86E1));
#255=VERTEX_POINT('',#253);
#256=VERTEX_POINT('',#254);
#257=CARTESIAN_POINT('',(5.2E0,4.E1,-4.86E1));
#258=CARTESIAN_POINT('',(-5.2E0,4.E1,-4.86E1));
#259=VERTEX_POINT('',#257);
#260=VERTEX_POINT('',#258);
#261=CARTESIAN_POINT('',(5.2E0,3.73E1,-4.86E1));
#262=CARTESIAN_POINT('',(-5.2E0,3.73E1,-4.86E1));
#263=VERTEX_POINT('',#261);
#264=VERTEX_POINT('',#262);
#265=CARTESIAN_POINT('',(5.2E0,2.7E0,-4.86E1));
#266=CARTESIAN_POINT('',(-5.2E0,2.7E0,-4.86E1));
#267=VERTEX_POINT('',#265);
#268=VERTEX_POINT('',#266);
#269=CARTESIAN_POINT('',(0.E0,2.3E1,0.E0));
#270=CARTESIAN_POINT('',(0.E0,1.7E1,0.E0));
#271=VERTEX_POINT('',#269);
#272=VERTEX_POINT('',#270);
#273=CARTESIAN_POINT('',(0.E0,2.3E1,-2.7E0));
#274=CARTESIAN_POINT('',(0.E0,1.7E1,-2.7E0));
#275=VERTEX_POINT('',#273);
#276=VERTEX_POINT('',#274);
#277=CARTESIAN_POINT('',(0.E0,0.E0,0.E0));
#278=DIRECTION('',(0.E0,1.E0,0.E0));
#279=DIRECTION('',(1.E0,0.E0,0.E0));
#280=AXIS2_PLACEMENT_3D('',#277,#278,#279);
#281=PLANE('',#280);
#283=ORIENTED_EDGE('',*,*,#282,.F.);
#285=ORIENTED_EDGE('',*,*,#284,.T.);
#287=ORIENTED_EDGE('',*,*,#286,.T.);
#289=ORIENTED_EDGE('',*,*,#288,.T.);
#290=EDGE_LOOP('',(#283,#285,#287,#289));
#291=FACE_OUTER_BOUND('',#290,.F.);
#293=ORIENTED_EDGE('',*,*,#292,.F.);
#295=ORIENTED_EDGE('',*,*,#294,.F.);
#296=EDGE_LOOP('',(#293,#295));
#297=FACE_BOUND('',#296,.F.);
#299=CARTESIAN_POINT('',(5.05008E1,3.E0,-3.E0));
#300=DIRECTION('',(-1.E0,0.E0,0.E0));
#301=DIRECTION('',(0.E0,-1.E0,0.E0));
#302=AXIS2_PLACEMENT_3D('',#299,#300,#301);
#303=CYLINDRICAL_SURFACE('',#302,3.E0);
#305=ORIENTED_EDGE('',*,*,#304,.T.);
#307=ORIENTED_EDGE('',*,*,#306,.F.);
#309=ORIENTED_EDGE('',*,*,#308,.T.);
#310=ORIENTED_EDGE('',*,*,#282,.T.);
#311=EDGE_LOOP('',(#305,#307,#309,#310));
#312=FACE_OUTER_BOUND('',#311,.F.);
#314=CARTESIAN_POINT('',(-1.4E1,0.E0,-4.4E1));
#315=DIRECTION('',(-1.E0,0.E0,0.E0));
#316=DIRECTION('',(0.E0,0.E0,1.E0));
#317=AXIS2_PLACEMENT_3D('',#314,#315,#316);
#318=PLANE('',#317);
#320=ORIENTED_EDGE('',*,*,#319,.F.);
#322=ORIENTED_EDGE('',*,*,#321,.F.);
#323=ORIENTED_EDGE('',*,*,#304,.F.);
#324=ORIENTED_EDGE('',*,*,#288,.F.);
#326=ORIENTED_EDGE('',*,*,#325,.T.);
#328=ORIENTED_EDGE('',*,*,#327,.T.);
#330=ORIENTED_EDGE('',*,*,#329,.T.);
#332=ORIENTED_EDGE('',*,*,#331,.F.);
#334=ORIENTED_EDGE('',*,*,#333,.T.);
#336=ORIENTED_EDGE('',*,*,#335,.T.);
#337=EDGE_LOOP('',(#320,#322,#323,#324,#326,#328,#330,#332,#334,#336));
#338=FACE_OUTER_BOUND('',#337,.F.);
#340=CARTESIAN_POINT('',(-5.05008E1,3.7E1,-3.E0));
#341=DIRECTION('',(1.E0,0.E0,0.E0));
#342=DIRECTION('',(0.E0,1.E0,0.E0));
#343=AXIS2_PLACEMENT_3D('',#340,#341,#342);
#344=CYLINDRICAL_SURFACE('',#343,3.E0);
#346=ORIENTED_EDGE('',*,*,#345,.T.);
#348=ORIENTED_EDGE('',*,*,#347,.F.);
#349=ORIENTED_EDGE('',*,*,#319,.T.);
#351=ORIENTED_EDGE('',*,*,#350,.T.);
#352=EDGE_LOOP('',(#346,#348,#349,#351));
#353=FACE_OUTER_BOUND('',#352,.F.);
#355=CARTESIAN_POINT('',(1.4E1,0.E0,0.E0));
#356=DIRECTION('',(1.E0,0.E0,0.E0));
#357=DIRECTION('',(0.E0,0.E0,-1.E0));
#358=AXIS2_PLACEMENT_3D('',#355,#356,#357);
#359=PLANE('',#358);
#360=ORIENTED_EDGE('',*,*,#345,.F.);
#362=ORIENTED_EDGE('',*,*,#361,.T.);
#364=ORIENTED_EDGE('',*,*,#363,.F.);
#366=ORIENTED_EDGE('',*,*,#365,.T.);
#368=ORIENTED_EDGE('',*,*,#367,.F.);
#370=ORIENTED_EDGE('',*,*,#369,.F.);
#372=ORIENTED_EDGE('',*,*,#371,.F.);
#373=ORIENTED_EDGE('',*,*,#284,.F.);
#374=ORIENTED_EDGE('',*,*,#308,.F.);
#376=ORIENTED_EDGE('',*,*,#375,.T.);
#377=EDGE_LOOP('',(#360,#362,#364,#366,#368,#370,#372,#373,#374,#376));
#378=FACE_OUTER_BOUND('',#377,.F.);
#380=CARTESIAN_POINT('',(0.E0,4.E1,0.E0));
#381=DIRECTION('',(0.E0,1.E0,0.E0));
#382=DIRECTION('',(1.E0,0.E0,0.E0));
#383=AXIS2_PLACEMENT_3D('',#380,#381,#382);
#384=PLANE('',#383);
#385=ORIENTED_EDGE('',*,*,#350,.F.);
#386=ORIENTED_EDGE('',*,*,#335,.F.);
#388=ORIENTED_EDGE('',*,*,#387,.F.);
#389=ORIENTED_EDGE('',*,*,#361,.F.);
#390=EDGE_LOOP('',(#385,#386,#388,#389));
#391=FACE_OUTER_BOUND('',#390,.F.);
#393=ORIENTED_EDGE('',*,*,#392,.T.);
#395=ORIENTED_EDGE('',*,*,#394,.T.);
#396=EDGE_LOOP('',(#393,#395));
#397=FACE_BOUND('',#396,.F.);
#399=CARTESIAN_POINT('',(0.E0,0.E0,-4.4E1));
#400=DIRECTION('',(0.E0,1.E0,0.E0));
#401=DIRECTION('',(1.E0,0.E0,0.E0));
#402=AXIS2_PLACEMENT_3D('',#399,#400,#401);
#403=CYLINDRICAL_SURFACE('',#402,1.4E1);
#405=ORIENTED_EDGE('',*,*,#404,.F.);
#406=ORIENTED_EDGE('',*,*,#363,.T.);
#407=ORIENTED_EDGE('',*,*,#387,.T.);
#408=ORIENTED_EDGE('',*,*,#333,.F.);
#409=EDGE_LOOP('',(#405,#406,#407,#408));
#410=FACE_OUTER_BOUND('',#409,.F.);
#412=CARTESIAN_POINT('',(0.E0,0.E0,-4.4E1));
#413=DIRECTION('',(0.E0,1.E0,0.E0));
#414=DIRECTION('',(1.E0,0.E0,0.E0));
#415=AXIS2_PLACEMENT_3D('',#412,#413,#414);
#416=CYLINDRICAL_SURFACE('',#415,1.4E1);
#418=ORIENTED_EDGE('',*,*,#417,.T.);
#419=ORIENTED_EDGE('',*,*,#325,.F.);
#420=ORIENTED_EDGE('',*,*,#286,.F.);
#421=ORIENTED_EDGE('',*,*,#371,.T.);
#422=EDGE_LOOP('',(#418,#419,#420,#421));
#423=FACE_OUTER_BOUND('',#422,.F.);
#425=CARTESIAN_POINT('',(0.E0,3.73E1,0.E0));
#426=DIRECTION('',(0.E0,1.E0,0.E0));
#427=DIRECTION('',(1.E0,0.E0,0.E0));
#428=AXIS2_PLACEMENT_3D('',#425,#426,#427);
#429=PLANE('',#428);
#430=ORIENTED_EDGE('',*,*,#404,.T.);
#431=ORIENTED_EDGE('',*,*,#331,.T.);
#433=ORIENTED_EDGE('',*,*,#432,.T.);
#434=ORIENTED_EDGE('',*,*,#365,.F.);
#435=EDGE_LOOP('',(#430,#431,#433,#434));
#436=FACE_OUTER_BOUND('',#435,.F.);
#438=ORIENTED_EDGE('',*,*,#437,.F.);
#440=ORIENTED_EDGE('',*,*,#439,.F.);
#441=EDGE_LOOP('',(#438,#440));
#442=FACE_BOUND('',#441,.F.);
#444=CARTESIAN_POINT('',(-1.4E1,3.73E1,-2.7E0));
#445=DIRECTION('',(0.E0,0.E0,1.E0));
#446=DIRECTION('',(1.E0,0.E0,0.E0));
#447=AXIS2_PLACEMENT_3D('',#444,#445,#446);
#448=PLANE('',#447);
#449=ORIENTED_EDGE('',*,*,#329,.F.);
#451=ORIENTED_EDGE('',*,*,#450,.T.);
#452=ORIENTED_EDGE('',*,*,#367,.T.);
#453=ORIENTED_EDGE('',*,*,#432,.F.);
#454=EDGE_LOOP('',(#449,#451,#452,#453));
#455=FACE_OUTER_BOUND('',#454,.F.);
#457=ORIENTED_EDGE('',*,*,#456,.T.);
#459=ORIENTED_EDGE('',*,*,#458,.T.);
#460=EDGE_LOOP('',(#457,#459));
#461=FACE_BOUND('',#460,.F.);
#463=CARTESIAN_POINT('',(0.E0,2.7E0,0.E0));
#464=DIRECTION('',(0.E0,1.E0,0.E0));
#465=DIRECTION('',(1.E0,0.E0,0.E0));
#466=AXIS2_PLACEMENT_3D('',#463,#464,#465);
#467=PLANE('',#466);
#468=ORIENTED_EDGE('',*,*,#417,.F.);
#469=ORIENTED_EDGE('',*,*,#369,.T.);
#470=ORIENTED_EDGE('',*,*,#450,.F.);
#471=ORIENTED_EDGE('',*,*,#327,.F.);
#472=EDGE_LOOP('',(#468,#469,#470,#471));
#473=FACE_OUTER_BOUND('',#472,.F.);
#475=ORIENTED_EDGE('',*,*,#474,.T.);
#477=ORIENTED_EDGE('',*,*,#476,.T.);
#478=EDGE_LOOP('',(#475,#477));
#479=FACE_BOUND('',#478,.F.);
#481=CARTESIAN_POINT('',(0.E0,4.E1,-4.86E1));
#482=DIRECTION('',(0.E0,1.E0,0.E0));
#483=DIRECTION('',(1.E0,0.E0,0.E0));
#484=AXIS2_PLACEMENT_3D('',#481,#482,#483);
#485=CYLINDRICAL_SURFACE('',#484,5.2E0);
#486=ORIENTED_EDGE('',*,*,#292,.T.);
#488=ORIENTED_EDGE('',*,*,#487,.F.);
#489=ORIENTED_EDGE('',*,*,#474,.F.);
#491=ORIENTED_EDGE('',*,*,#490,.T.);
#492=EDGE_LOOP('',(#486,#488,#489,#491));
#493=FACE_OUTER_BOUND('',#492,.F.);
#495=CARTESIAN_POINT('',(0.E0,4.E1,-4.86E1));
#496=DIRECTION('',(0.E0,1.E0,0.E0));
#497=DIRECTION('',(1.E0,0.E0,0.E0));
#498=AXIS2_PLACEMENT_3D('',#495,#496,#497);
#499=CYLINDRICAL_SURFACE('',#498,5.2E0);
#500=ORIENTED_EDGE('',*,*,#392,.F.);
#502=ORIENTED_EDGE('',*,*,#501,.T.);
#503=ORIENTED_EDGE('',*,*,#437,.T.);
#505=ORIENTED_EDGE('',*,*,#504,.F.);
#506=EDGE_LOOP('',(#500,#502,#503,#505));
#507=FACE_OUTER_BOUND('',#506,.F.);
#509=CARTESIAN_POINT('',(0.E0,4.E1,-4.86E1));
#510=DIRECTION('',(0.E0,1.E0,0.E0));
#511=DIRECTION('',(1.E0,0.E0,0.E0));
#512=AXIS2_PLACEMENT_3D('',#509,#510,#511);
#513=CYLINDRICAL_SURFACE('',#512,5.2E0);
#514=ORIENTED_EDGE('',*,*,#294,.T.);
#515=ORIENTED_EDGE('',*,*,#490,.F.);
#516=ORIENTED_EDGE('',*,*,#476,.F.);
#517=ORIENTED_EDGE('',*,*,#487,.T.);
#518=EDGE_LOOP('',(#514,#515,#516,#517));
#519=FACE_OUTER_BOUND('',#518,.F.);
#521=CARTESIAN_POINT('',(0.E0,4.E1,-4.86E1));
#522=DIRECTION('',(0.E0,1.E0,0.E0));
#523=DIRECTION('',(1.E0,0.E0,0.E0));
#524=AXIS2_PLACEMENT_3D('',#521,#522,#523);
#525=CYLINDRICAL_SURFACE('',#524,5.2E0);
#526=ORIENTED_EDGE('',*,*,#394,.F.);
#527=ORIENTED_EDGE('',*,*,#504,.T.);
#528=ORIENTED_EDGE('',*,*,#439,.T.);
#529=ORIENTED_EDGE('',*,*,#501,.F.);
#530=EDGE_LOOP('',(#526,#527,#528,#529));
#531=FACE_OUTER_BOUND('',#530,.F.);
#533=CARTESIAN_POINT('',(0.E0,2.E1,-2.7E0));
#534=DIRECTION('',(0.E0,0.E0,-1.E0));
#535=DIRECTION('',(0.E0,1.E0,0.E0));
#536=AXIS2_PLACEMENT_3D('',#533,#534,#535);
#537=CYLINDRICAL_SURFACE('',#536,3.E0);
#539=ORIENTED_EDGE('',*,*,#538,.T.);
#541=ORIENTED_EDGE('',*,*,#540,.F.);
#542=ORIENTED_EDGE('',*,*,#456,.F.);
#544=ORIENTED_EDGE('',*,*,#543,.T.);
#545=EDGE_LOOP('',(#539,#541,#542,#544));
#546=FACE_OUTER_BOUND('',#545,.F.);
#548=CARTESIAN_POINT('',(-1.4E1,0.E0,0.E0));
#549=DIRECTION('',(0.E0,0.E0,1.E0));
#550=DIRECTION('',(1.E0,0.E0,0.E0));
#551=AXIS2_PLACEMENT_3D('',#548,#549,#550);
#552=PLANE('',#551);
#553=ORIENTED_EDGE('',*,*,#347,.T.);
#554=ORIENTED_EDGE('',*,*,#375,.F.);
#555=ORIENTED_EDGE('',*,*,#306,.T.);
#556=ORIENTED_EDGE('',*,*,#321,.T.);
#557=EDGE_LOOP('',(#553,#554,#555,#556));
#558=FACE_OUTER_BOUND('',#557,.F.);
#559=ORIENTED_EDGE('',*,*,#538,.F.);
#561=ORIENTED_EDGE('',*,*,#560,.F.);
#562=EDGE_LOOP('',(#559,#561));
#563=FACE_BOUND('',#562,.F.);
#565=CARTESIAN_POINT('',(0.E0,2.E1,-2.7E0));
#566=DIRECTION('',(0.E0,0.E0,-1.E0));
#567=DIRECTION('',(0.E0,1.E0,0.E0));
#568=AXIS2_PLACEMENT_3D('',#565,#566,#567);
#569=CYLINDRICAL_SURFACE('',#568,3.E0);
#570=ORIENTED_EDGE('',*,*,#560,.T.);
#571=ORIENTED_EDGE('',*,*,#543,.F.);
#572=ORIENTED_EDGE('',*,*,#458,.F.);
#573=ORIENTED_EDGE('',*,*,#540,.T.);
#574=EDGE_LOOP('',(#570,#571,#572,#573));
#575=FACE_OUTER_BOUND('',#574,.F.);
#577=CLOSED_SHELL('',(#298,#313,#339,#354,#379,#398,#411,#424,#443,#462,#480,
#494,#508,#520,#532,#547,#564,#576));
#578=MANIFOLD_SOLID_BREP('',#577);
#579=DIMENSIONAL_EXPONENTS(1.E0,0.E0,0.E0,0.E0,0.E0,0.E0,0.E0);
#580=(LENGTH_UNIT()NAMED_UNIT(*)SI_UNIT(.MILLI.,.METRE.));
#581=LENGTH_MEASURE_WITH_UNIT(LENGTH_MEASURE(2.54E1),#580);
#582=(CONVERSION_BASED_UNIT('INCH',#581)LENGTH_UNIT()NAMED_UNIT(#579));
#583=DIMENSIONAL_EXPONENTS(0.E0,0.E0,0.E0,0.E0,0.E0,0.E0,0.E0);
#584=(NAMED_UNIT(*)PLANE_ANGLE_UNIT()SI_UNIT($,.RADIAN.));
#585=PLANE_ANGLE_MEASURE_WITH_UNIT(PLANE_ANGLE_MEASURE(1.745329251994E-2),#584);
#586=(CONVERSION_BASED_UNIT('DEGREE',#585)NAMED_UNIT(#583)PLANE_ANGLE_UNIT());
#587=(NAMED_UNIT(*)SI_UNIT($,.STERADIAN.)SOLID_ANGLE_UNIT());
#588=UNCERTAINTY_MEASURE_WITH_UNIT(LENGTH_MEASURE(7.581253306147E-3),#582,
'closure',
'Maximum model space distance between geometric entities at asserted connectivities');
#591=APPLICATION_CONTEXT(
'CONFIGURATION CONTROLLED 3D DESIGNS OF MECHANICAL PARTS AND ASSEMBLIES');
#592=APPLICATION_PROTOCOL_DEFINITION('international standard',
'config_control_design',1994,#591);
#593=DESIGN_CONTEXT('',#591,'design');
#594=MECHANICAL_CONTEXT('',#591,'mechanical');
#595=PRODUCT('ZJ-05','ZJ-05','NOT SPECIFIED',(#594));
#596=PRODUCT_DEFINITION_FORMATION_WITH_SPECIFIED_SOURCE('2','LAST_VERSION',#595,
.MADE.);
#600=PRODUCT_CATEGORY('part','');
#601=PRODUCT_RELATED_PRODUCT_CATEGORY('detail','',(#595));
#602=PRODUCT_CATEGORY_RELATIONSHIP('','',#600,#601);
#603=SECURITY_CLASSIFICATION_LEVEL('unclassified');
#604=SECURITY_CLASSIFICATION('','',#603);
#605=CC_DESIGN_SECURITY_CLASSIFICATION(#604,(#596));
#606=APPROVAL_STATUS('approved');
#607=APPROVAL(#606,'');
#608=CC_DESIGN_APPROVAL(#607,(#604,#596,#597));
#609=CALENDAR_DATE(122,21,3);
#610=COORDINATED_UNIVERSAL_TIME_OFFSET(8,0,.AHEAD.);
#611=LOCAL_TIME(21,9,4.2E1,#610);
#612=DATE_AND_TIME(#609,#611);
#613=APPROVAL_DATE_TIME(#612,#607);
#614=DATE_TIME_ROLE('creation_date');
#615=CC_DESIGN_DATE_AND_TIME_ASSIGNMENT(#612,#614,(#597));
#616=DATE_TIME_ROLE('classification_date');
#617=CC_DESIGN_DATE_AND_TIME_ASSIGNMENT(#612,#616,(#604));
#618=PERSON('UNSPECIFIED','UNSPECIFIED',$,$,$,$);
#619=ORGANIZATION('UNSPECIFIED','UNSPECIFIED','UNSPECIFIED');
#620=PERSON_AND_ORGANIZATION(#618,#619);
#621=APPROVAL_ROLE('approver');
#622=APPROVAL_PERSON_ORGANIZATION(#620,#607,#621);
#623=PERSON_AND_ORGANIZATION_ROLE('creator');
#624=CC_DESIGN_PERSON_AND_ORGANIZATION_ASSIGNMENT(#620,#623,(#596,#597));
#625=PERSON_AND_ORGANIZATION_ROLE('design_supplier');
#626=CC_DESIGN_PERSON_AND_ORGANIZATION_ASSIGNMENT(#620,#625,(#596));
#627=PERSON_AND_ORGANIZATION_ROLE('classification_officer');
#628=CC_DESIGN_PERSON_AND_ORGANIZATION_ASSIGNMENT(#620,#627,(#604));
#629=PERSON_AND_ORGANIZATION_ROLE('design_owner');
#630=CC_DESIGN_PERSON_AND_ORGANIZATION_ASSIGNMENT(#620,#629,(#595));
#13=CIRCLE('',#12,1.4E1);
#22=CIRCLE('',#21,5.2E0);
#27=CIRCLE('',#26,5.2E0);
#32=CIRCLE('',#31,3.E0);
#37=CIRCLE('',#36,3.E0);
#62=CIRCLE('',#61,3.E0);
#79=CIRCLE('',#78,3.E0);
#96=CIRCLE('',#95,1.4E1);
#105=CIRCLE('',#104,5.2E0);
#110=CIRCLE('',#109,5.2E0);
#115=CIRCLE('',#114,1.4E1);
#124=CIRCLE('',#123,1.4E1);
#137=CIRCLE('',#136,5.2E0);
#142=CIRCLE('',#141,5.2E0);
#147=CIRCLE('',#146,3.E0);
#152=CIRCLE('',#151,3.E0);
#161=CIRCLE('',#160,5.2E0);
#166=CIRCLE('',#165,5.2E0);
#203=CIRCLE('',#202,3.E0);
#208=CIRCLE('',#207,3.E0);
#282=EDGE_CURVE('',#252,#247,#4,.T.);
#284=EDGE_CURVE('',#252,#215,#8,.T.);
#286=EDGE_CURVE('',#215,#216,#13,.T.);
#288=EDGE_CURVE('',#216,#247,#17,.T.);
#292=EDGE_CURVE('',#255,#256,#22,.T.);
#294=EDGE_CURVE('',#256,#255,#27,.T.);
#298=ADVANCED_FACE('',(#291,#297),#281,.F.);
#304=EDGE_CURVE('',#247,#248,#37,.T.);
#306=EDGE_CURVE('',#250,#248,#194,.T.);
#308=EDGE_CURVE('',#250,#252,#79,.T.);
#313=ADVANCED_FACE('',(#312),#303,.T.);
#319=EDGE_CURVE('',#242,#244,#32,.T.);
#321=EDGE_CURVE('',#248,#242,#198,.T.);
#325=EDGE_CURVE('',#216,#228,#41,.T.);
#327=EDGE_CURVE('',#228,#232,#45,.T.);
#329=EDGE_CURVE('',#232,#230,#49,.T.);
#331=EDGE_CURVE('',#224,#230,#53,.T.);
#333=EDGE_CURVE('',#224,#220,#57,.T.);
#335=EDGE_CURVE('',#220,#244,#91,.T.);
#339=ADVANCED_FACE('',(#338),#318,.T.);
#345=EDGE_CURVE('',#239,#240,#62,.T.);
#347=EDGE_CURVE('',#242,#240,#190,.T.);
#350=EDGE_CURVE('',#244,#239,#87,.T.);
#354=ADVANCED_FACE('',(#353),#344,.T.);
#361=EDGE_CURVE('',#239,#219,#100,.T.);
#363=EDGE_CURVE('',#223,#219,#119,.T.);
#365=EDGE_CURVE('',#223,#234,#66,.T.);
#367=EDGE_CURVE('',#236,#234,#70,.T.);
#369=EDGE_CURVE('',#227,#236,#74,.T.);
#371=EDGE_CURVE('',#215,#227,#128,.T.);
#375=EDGE_CURVE('',#250,#240,#83,.T.);
#379=ADVANCED_FACE('',(#378),#359,.T.);
#387=EDGE_CURVE('',#219,#220,#96,.T.);
#392=EDGE_CURVE('',#259,#260,#105,.T.);
#394=EDGE_CURVE('',#260,#259,#110,.T.);
#398=ADVANCED_FACE('',(#391,#397),#384,.T.);
#404=EDGE_CURVE('',#223,#224,#115,.T.);
#411=ADVANCED_FACE('',(#410),#403,.T.);
#417=EDGE_CURVE('',#227,#228,#124,.T.);
#424=ADVANCED_FACE('',(#423),#416,.T.);
#432=EDGE_CURVE('',#230,#234,#132,.T.);
#437=EDGE_CURVE('',#263,#264,#137,.T.);
#439=EDGE_CURVE('',#264,#263,#142,.T.);
#443=ADVANCED_FACE('',(#436,#442),#429,.F.);
#450=EDGE_CURVE('',#232,#236,#156,.T.);
#456=EDGE_CURVE('',#275,#276,#147,.T.);
#458=EDGE_CURVE('',#276,#275,#152,.T.);
#462=ADVANCED_FACE('',(#455,#461),#448,.F.);
#474=EDGE_CURVE('',#267,#268,#161,.T.);
#476=EDGE_CURVE('',#268,#267,#166,.T.);
#480=ADVANCED_FACE('',(#473,#479),#467,.T.);
#487=EDGE_CURVE('',#268,#256,#178,.T.);
#490=EDGE_CURVE('',#267,#255,#170,.T.);
#494=ADVANCED_FACE('',(#493),#485,.F.);
#501=EDGE_CURVE('',#259,#263,#174,.T.);
#504=EDGE_CURVE('',#260,#264,#182,.T.);
#508=ADVANCED_FACE('',(#507),#499,.F.);
#520=ADVANCED_FACE('',(#519),#513,.F.);
#532=ADVANCED_FACE('',(#531),#525,.F.);
#538=EDGE_CURVE('',#271,#272,#203,.T.);
#540=EDGE_CURVE('',#276,#272,#212,.T.);
#543=EDGE_CURVE('',#275,#271,#186,.T.);
#547=ADVANCED_FACE('',(#546),#537,.F.);
#560=EDGE_CURVE('',#272,#271,#208,.T.);
#564=ADVANCED_FACE('',(#558,#563),#552,.T.);
#576=ADVANCED_FACE('',(#575),#569,.F.);
#589=(GEOMETRIC_REPRESENTATION_CONTEXT(3)GLOBAL_UNCERTAINTY_ASSIGNED_CONTEXT((
#588))GLOBAL_UNIT_ASSIGNED_CONTEXT((#582,#586,#587))REPRESENTATION_CONTEXT
('ID1','3'));
#590=ADVANCED_BREP_SHAPE_REPRESENTATION('',(#578),#589);
#597=PRODUCT_DEFINITION('design','',#596,#593);
#598=PRODUCT_DEFINITION_SHAPE('','SHAPE FOR ZJ-05.',#597);
#599=SHAPE_DEFINITION_REPRESENTATION(#598,#590);
ENDSEC;
END-ISO-10303-21;
