ISO-10303-21;
HEADER;
FILE_DESCRIPTION((''),'2;1');
FILE_NAME('ZJ-11','2022-03-22T',('Administrator'),(''),
'PRO/ENGINEER BY PARAMETRIC TECHNOLOGY CORPORATION, 2008380',
'PRO/ENGINEER BY PARAMETRIC TECHNOLOGY CORPORATION, 2008380','');
FILE_SCHEMA(('CONFIG_CONTROL_DESIGN'));
ENDSEC;
DATA;
#1=DIRECTION('',(1.E0,0.E0,0.E0));
#2=VECTOR('',#1,5.9E1);
#3=CARTESIAN_POINT('',(-2.95E1,0.E0,0.E0));
#4=LINE('',#3,#2);
#5=DIRECTION('',(0.E0,0.E0,-1.E0));
#6=VECTOR('',#5,5.E0);
#7=CARTESIAN_POINT('',(2.95E1,0.E0,0.E0));
#8=LINE('',#7,#6);
#9=DIRECTION('',(-1.E0,0.E0,0.E0));
#10=VECTOR('',#9,1.5E1);
#11=CARTESIAN_POINT('',(2.95E1,0.E0,-5.E0));
#12=LINE('',#11,#10);
#13=DIRECTION('',(0.E0,0.E0,-1.E0));
#14=VECTOR('',#13,2.4E1);
#15=CARTESIAN_POINT('',(1.45E1,0.E0,-5.E0));
#16=LINE('',#15,#14);
#17=DIRECTION('',(-1.E0,0.E0,0.E0));
#18=VECTOR('',#17,5.E0);
#19=CARTESIAN_POINT('',(1.45E1,0.E0,-2.9E1));
#20=LINE('',#19,#18);
#21=DIRECTION('',(0.E0,0.E0,1.E0));
#22=VECTOR('',#21,2.4E1);
#23=CARTESIAN_POINT('',(9.5E0,0.E0,-2.9E1));
#24=LINE('',#23,#22);
#25=DIRECTION('',(-1.E0,0.E0,0.E0));
#26=VECTOR('',#25,1.9E1);
#27=CARTESIAN_POINT('',(9.5E0,0.E0,-5.E0));
#28=LINE('',#27,#26);
#29=DIRECTION('',(0.E0,0.E0,-1.E0));
#30=VECTOR('',#29,2.4E1);
#31=CARTESIAN_POINT('',(-9.5E0,0.E0,-5.E0));
#32=LINE('',#31,#30);
#33=DIRECTION('',(-1.E0,0.E0,0.E0));
#34=VECTOR('',#33,5.E0);
#35=CARTESIAN_POINT('',(-9.5E0,0.E0,-2.9E1));
#36=LINE('',#35,#34);
#37=DIRECTION('',(0.E0,0.E0,1.E0));
#38=VECTOR('',#37,2.4E1);
#39=CARTESIAN_POINT('',(-1.45E1,0.E0,-2.9E1));
#40=LINE('',#39,#38);
#41=DIRECTION('',(-1.E0,0.E0,0.E0));
#42=VECTOR('',#41,1.5E1);
#43=CARTESIAN_POINT('',(-1.45E1,0.E0,-5.E0));
#44=LINE('',#43,#42);
#45=DIRECTION('',(0.E0,0.E0,1.E0));
#46=VECTOR('',#45,5.E0);
#47=CARTESIAN_POINT('',(-2.95E1,0.E0,-5.E0));
#48=LINE('',#47,#46);
#49=DIRECTION('',(0.E0,1.E0,0.E0));
#50=VECTOR('',#49,1.7E1);
#51=CARTESIAN_POINT('',(-2.95E1,0.E0,0.E0));
#52=LINE('',#51,#50);
#53=CARTESIAN_POINT('',(-2.2E1,8.5E0,0.E0));
#54=DIRECTION('',(0.E0,0.E0,-1.E0));
#55=DIRECTION('',(1.E0,0.E0,0.E0));
#56=AXIS2_PLACEMENT_3D('',#53,#54,#55);
#58=CARTESIAN_POINT('',(-2.2E1,8.5E0,0.E0));
#59=DIRECTION('',(0.E0,0.E0,-1.E0));
#60=DIRECTION('',(-1.E0,0.E0,0.E0));
#61=AXIS2_PLACEMENT_3D('',#58,#59,#60);
#63=CARTESIAN_POINT('',(2.2E1,8.5E0,0.E0));
#64=DIRECTION('',(0.E0,0.E0,-1.E0));
#65=DIRECTION('',(1.E0,0.E0,0.E0));
#66=AXIS2_PLACEMENT_3D('',#63,#64,#65);
#68=CARTESIAN_POINT('',(2.2E1,8.5E0,0.E0));
#69=DIRECTION('',(0.E0,0.E0,-1.E0));
#70=DIRECTION('',(-1.E0,0.E0,0.E0));
#71=AXIS2_PLACEMENT_3D('',#68,#69,#70);
#73=DIRECTION('',(0.E0,1.E0,0.E0));
#74=VECTOR('',#73,1.7E1);
#75=CARTESIAN_POINT('',(-2.95E1,0.E0,-5.E0));
#76=LINE('',#75,#74);
#77=DIRECTION('',(0.E0,1.E0,0.E0));
#78=VECTOR('',#77,1.7E1);
#79=CARTESIAN_POINT('',(-1.45E1,0.E0,-5.E0));
#80=LINE('',#79,#78);
#81=CARTESIAN_POINT('',(-2.2E1,8.5E0,-5.E0));
#82=DIRECTION('',(0.E0,0.E0,-1.E0));
#83=DIRECTION('',(1.E0,0.E0,0.E0));
#84=AXIS2_PLACEMENT_3D('',#81,#82,#83);
#86=CARTESIAN_POINT('',(-2.2E1,8.5E0,-5.E0));
#87=DIRECTION('',(0.E0,0.E0,-1.E0));
#88=DIRECTION('',(-1.E0,0.E0,0.E0));
#89=AXIS2_PLACEMENT_3D('',#86,#87,#88);
#91=DIRECTION('',(0.E0,1.E0,0.E0));
#92=VECTOR('',#91,1.7E1);
#93=CARTESIAN_POINT('',(-1.45E1,0.E0,-2.9E1));
#94=LINE('',#93,#92);
#95=CARTESIAN_POINT('',(-1.45E1,8.5E0,-2.2E1));
#96=DIRECTION('',(1.E0,0.E0,0.E0));
#97=DIRECTION('',(0.E0,-1.E0,0.E0));
#98=AXIS2_PLACEMENT_3D('',#95,#96,#97);
#100=CARTESIAN_POINT('',(-1.45E1,8.5E0,-2.2E1));
#101=DIRECTION('',(1.E0,0.E0,0.E0));
#102=DIRECTION('',(0.E0,1.E0,0.E0));
#103=AXIS2_PLACEMENT_3D('',#100,#101,#102);
#105=DIRECTION('',(0.E0,1.E0,0.E0));
#106=VECTOR('',#105,1.7E1);
#107=CARTESIAN_POINT('',(-9.5E0,0.E0,-2.9E1));
#108=LINE('',#107,#106);
#109=DIRECTION('',(0.E0,1.E0,0.E0));
#110=VECTOR('',#109,1.7E1);
#111=CARTESIAN_POINT('',(-9.5E0,0.E0,-5.E0));
#112=LINE('',#111,#110);
#113=CARTESIAN_POINT('',(-9.5E0,8.5E0,-2.2E1));
#114=DIRECTION('',(1.E0,0.E0,0.E0));
#115=DIRECTION('',(0.E0,-1.E0,0.E0));
#116=AXIS2_PLACEMENT_3D('',#113,#114,#115);
#118=CARTESIAN_POINT('',(-9.5E0,8.5E0,-2.2E1));
#119=DIRECTION('',(1.E0,0.E0,0.E0));
#120=DIRECTION('',(0.E0,1.E0,0.E0));
#121=AXIS2_PLACEMENT_3D('',#118,#119,#120);
#123=DIRECTION('',(0.E0,1.E0,0.E0));
#124=VECTOR('',#123,1.7E1);
#125=CARTESIAN_POINT('',(9.5E0,0.E0,-5.E0));
#126=LINE('',#125,#124);
#127=DIRECTION('',(0.E0,1.E0,0.E0));
#128=VECTOR('',#127,1.7E1);
#129=CARTESIAN_POINT('',(9.5E0,0.E0,-2.9E1));
#130=LINE('',#129,#128);
#131=CARTESIAN_POINT('',(9.5E0,8.5E0,-2.2E1));
#132=DIRECTION('',(1.E0,0.E0,0.E0));
#133=DIRECTION('',(0.E0,-1.E0,0.E0));
#134=AXIS2_PLACEMENT_3D('',#131,#132,#133);
#136=CARTESIAN_POINT('',(9.5E0,8.5E0,-2.2E1));
#137=DIRECTION('',(1.E0,0.E0,0.E0));
#138=DIRECTION('',(0.E0,1.E0,0.E0));
#139=AXIS2_PLACEMENT_3D('',#136,#137,#138);
#141=DIRECTION('',(0.E0,1.E0,0.E0));
#142=VECTOR('',#141,1.7E1);
#143=CARTESIAN_POINT('',(1.45E1,0.E0,-2.9E1));
#144=LINE('',#143,#142);
#145=DIRECTION('',(0.E0,1.E0,0.E0));
#146=VECTOR('',#145,1.7E1);
#147=CARTESIAN_POINT('',(1.45E1,0.E0,-5.E0));
#148=LINE('',#147,#146);
#149=CARTESIAN_POINT('',(1.45E1,8.5E0,-2.2E1));
#150=DIRECTION('',(1.E0,0.E0,0.E0));
#151=DIRECTION('',(0.E0,-1.E0,0.E0));
#152=AXIS2_PLACEMENT_3D('',#149,#150,#151);
#154=CARTESIAN_POINT('',(1.45E1,8.5E0,-2.2E1));
#155=DIRECTION('',(1.E0,0.E0,0.E0));
#156=DIRECTION('',(0.E0,1.E0,0.E0));
#157=AXIS2_PLACEMENT_3D('',#154,#155,#156);
#159=DIRECTION('',(0.E0,1.E0,0.E0));
#160=VECTOR('',#159,1.7E1);
#161=CARTESIAN_POINT('',(2.95E1,0.E0,-5.E0));
#162=LINE('',#161,#160);
#163=CARTESIAN_POINT('',(2.2E1,8.5E0,-5.E0));
#164=DIRECTION('',(0.E0,0.E0,-1.E0));
#165=DIRECTION('',(1.E0,0.E0,0.E0));
#166=AXIS2_PLACEMENT_3D('',#163,#164,#165);
#168=CARTESIAN_POINT('',(2.2E1,8.5E0,-5.E0));
#169=DIRECTION('',(0.E0,0.E0,-1.E0));
#170=DIRECTION('',(-1.E0,0.E0,0.E0));
#171=AXIS2_PLACEMENT_3D('',#168,#169,#170);
#173=DIRECTION('',(0.E0,1.E0,0.E0));
#174=VECTOR('',#173,1.7E1);
#175=CARTESIAN_POINT('',(2.95E1,0.E0,0.E0));
#176=LINE('',#175,#174);
#177=DIRECTION('',(1.E0,0.E0,0.E0));
#178=VECTOR('',#177,5.9E1);
#179=CARTESIAN_POINT('',(-2.95E1,1.7E1,0.E0));
#180=LINE('',#179,#178);
#181=DIRECTION('',(0.E0,0.E0,1.E0));
#182=VECTOR('',#181,5.E0);
#183=CARTESIAN_POINT('',(-2.95E1,1.7E1,-5.E0));
#184=LINE('',#183,#182);
#185=DIRECTION('',(-1.E0,0.E0,0.E0));
#186=VECTOR('',#185,1.5E1);
#187=CARTESIAN_POINT('',(-1.45E1,1.7E1,-5.E0));
#188=LINE('',#187,#186);
#189=DIRECTION('',(0.E0,0.E0,1.E0));
#190=VECTOR('',#189,2.4E1);
#191=CARTESIAN_POINT('',(-1.45E1,1.7E1,-2.9E1));
#192=LINE('',#191,#190);
#193=DIRECTION('',(-1.E0,0.E0,0.E0));
#194=VECTOR('',#193,5.E0);
#195=CARTESIAN_POINT('',(-9.5E0,1.7E1,-2.9E1));
#196=LINE('',#195,#194);
#197=DIRECTION('',(0.E0,0.E0,-1.E0));
#198=VECTOR('',#197,2.4E1);
#199=CARTESIAN_POINT('',(-9.5E0,1.7E1,-5.E0));
#200=LINE('',#199,#198);
#201=DIRECTION('',(-1.E0,0.E0,0.E0));
#202=VECTOR('',#201,1.9E1);
#203=CARTESIAN_POINT('',(9.5E0,1.7E1,-5.E0));
#204=LINE('',#203,#202);
#205=DIRECTION('',(0.E0,0.E0,1.E0));
#206=VECTOR('',#205,2.4E1);
#207=CARTESIAN_POINT('',(9.5E0,1.7E1,-2.9E1));
#208=LINE('',#207,#206);
#209=DIRECTION('',(-1.E0,0.E0,0.E0));
#210=VECTOR('',#209,5.E0);
#211=CARTESIAN_POINT('',(1.45E1,1.7E1,-2.9E1));
#212=LINE('',#211,#210);
#213=DIRECTION('',(0.E0,0.E0,-1.E0));
#214=VECTOR('',#213,2.4E1);
#215=CARTESIAN_POINT('',(1.45E1,1.7E1,-5.E0));
#216=LINE('',#215,#214);
#217=DIRECTION('',(-1.E0,0.E0,0.E0));
#218=VECTOR('',#217,1.5E1);
#219=CARTESIAN_POINT('',(2.95E1,1.7E1,-5.E0));
#220=LINE('',#219,#218);
#221=DIRECTION('',(0.E0,0.E0,-1.E0));
#222=VECTOR('',#221,5.E0);
#223=CARTESIAN_POINT('',(2.95E1,1.7E1,0.E0));
#224=LINE('',#223,#222);
#225=DIRECTION('',(0.E0,0.E0,1.E0));
#226=VECTOR('',#225,5.E0);
#227=CARTESIAN_POINT('',(2.55E1,8.5E0,-5.E0));
#228=LINE('',#227,#226);
#229=DIRECTION('',(0.E0,0.E0,1.E0));
#230=VECTOR('',#229,5.E0);
#231=CARTESIAN_POINT('',(1.85E1,8.5E0,-5.E0));
#232=LINE('',#231,#230);
#233=DIRECTION('',(-1.E0,0.E0,0.E0));
#234=VECTOR('',#233,5.E0);
#235=CARTESIAN_POINT('',(1.45E1,5.4E0,-2.2E1));
#236=LINE('',#235,#234);
#237=DIRECTION('',(-1.E0,0.E0,0.E0));
#238=VECTOR('',#237,5.E0);
#239=CARTESIAN_POINT('',(-9.5E0,5.4E0,-2.2E1));
#240=LINE('',#239,#238);
#241=DIRECTION('',(-1.E0,0.E0,0.E0));
#242=VECTOR('',#241,5.E0);
#243=CARTESIAN_POINT('',(1.45E1,1.16E1,-2.2E1));
#244=LINE('',#243,#242);
#245=DIRECTION('',(-1.E0,0.E0,0.E0));
#246=VECTOR('',#245,5.E0);
#247=CARTESIAN_POINT('',(-9.5E0,1.16E1,-2.2E1));
#248=LINE('',#247,#246);
#249=DIRECTION('',(0.E0,0.E0,1.E0));
#250=VECTOR('',#249,5.E0);
#251=CARTESIAN_POINT('',(-1.85E1,8.5E0,-5.E0));
#252=LINE('',#251,#250);
#253=DIRECTION('',(0.E0,0.E0,1.E0));
#254=VECTOR('',#253,5.E0);
#255=CARTESIAN_POINT('',(-2.55E1,8.5E0,-5.E0));
#256=LINE('',#255,#254);
#257=CARTESIAN_POINT('',(-2.95E1,0.E0,0.E0));
#258=CARTESIAN_POINT('',(2.95E1,0.E0,0.E0));
#259=VERTEX_POINT('',#257);
#260=VERTEX_POINT('',#258);
#261=CARTESIAN_POINT('',(2.95E1,0.E0,-5.E0));
#262=VERTEX_POINT('',#261);
#263=CARTESIAN_POINT('',(1.45E1,0.E0,-5.E0));
#264=VERTEX_POINT('',#263);
#265=CARTESIAN_POINT('',(1.45E1,0.E0,-2.9E1));
#266=VERTEX_POINT('',#265);
#267=CARTESIAN_POINT('',(9.5E0,0.E0,-2.9E1));
#268=VERTEX_POINT('',#267);
#269=CARTESIAN_POINT('',(9.5E0,0.E0,-5.E0));
#270=VERTEX_POINT('',#269);
#271=CARTESIAN_POINT('',(-9.5E0,0.E0,-5.E0));
#272=VERTEX_POINT('',#271);
#273=CARTESIAN_POINT('',(-9.5E0,0.E0,-2.9E1));
#274=VERTEX_POINT('',#273);
#275=CARTESIAN_POINT('',(-1.45E1,0.E0,-2.9E1));
#276=VERTEX_POINT('',#275);
#277=CARTESIAN_POINT('',(-1.45E1,0.E0,-5.E0));
#278=VERTEX_POINT('',#277);
#279=CARTESIAN_POINT('',(-2.95E1,0.E0,-5.E0));
#280=VERTEX_POINT('',#279);
#281=CARTESIAN_POINT('',(-2.95E1,1.7E1,0.E0));
#282=CARTESIAN_POINT('',(2.95E1,1.7E1,0.E0));
#283=VERTEX_POINT('',#281);
#284=VERTEX_POINT('',#282);
#285=CARTESIAN_POINT('',(2.95E1,1.7E1,-5.E0));
#286=VERTEX_POINT('',#285);
#287=CARTESIAN_POINT('',(1.45E1,1.7E1,-5.E0));
#288=VERTEX_POINT('',#287);
#289=CARTESIAN_POINT('',(1.45E1,1.7E1,-2.9E1));
#290=VERTEX_POINT('',#289);
#291=CARTESIAN_POINT('',(9.5E0,1.7E1,-2.9E1));
#292=VERTEX_POINT('',#291);
#293=CARTESIAN_POINT('',(9.5E0,1.7E1,-5.E0));
#294=VERTEX_POINT('',#293);
#295=CARTESIAN_POINT('',(-9.5E0,1.7E1,-5.E0));
#296=VERTEX_POINT('',#295);
#297=CARTESIAN_POINT('',(-9.5E0,1.7E1,-2.9E1));
#298=VERTEX_POINT('',#297);
#299=CARTESIAN_POINT('',(-1.45E1,1.7E1,-2.9E1));
#300=VERTEX_POINT('',#299);
#301=CARTESIAN_POINT('',(-1.45E1,1.7E1,-5.E0));
#302=VERTEX_POINT('',#301);
#303=CARTESIAN_POINT('',(-2.95E1,1.7E1,-5.E0));
#304=VERTEX_POINT('',#303);
#305=CARTESIAN_POINT('',(-1.85E1,8.5E0,0.E0));
#306=CARTESIAN_POINT('',(-2.55E1,8.5E0,0.E0));
#307=VERTEX_POINT('',#305);
#308=VERTEX_POINT('',#306);
#309=CARTESIAN_POINT('',(2.55E1,8.5E0,0.E0));
#310=CARTESIAN_POINT('',(1.85E1,8.5E0,0.E0));
#311=VERTEX_POINT('',#309);
#312=VERTEX_POINT('',#310);
#313=CARTESIAN_POINT('',(2.55E1,8.5E0,-5.E0));
#314=CARTESIAN_POINT('',(1.85E1,8.5E0,-5.E0));
#315=VERTEX_POINT('',#313);
#316=VERTEX_POINT('',#314);
#317=CARTESIAN_POINT('',(-1.85E1,8.5E0,-5.E0));
#318=CARTESIAN_POINT('',(-2.55E1,8.5E0,-5.E0));
#319=VERTEX_POINT('',#317);
#320=VERTEX_POINT('',#318);
#321=CARTESIAN_POINT('',(1.45E1,5.4E0,-2.2E1));
#322=CARTESIAN_POINT('',(1.45E1,1.16E1,-2.2E1));
#323=VERTEX_POINT('',#321);
#324=VERTEX_POINT('',#322);
#325=CARTESIAN_POINT('',(9.5E0,5.4E0,-2.2E1));
#326=CARTESIAN_POINT('',(9.5E0,1.16E1,-2.2E1));
#327=VERTEX_POINT('',#325);
#328=VERTEX_POINT('',#326);
#329=CARTESIAN_POINT('',(-9.5E0,5.4E0,-2.2E1));
#330=CARTESIAN_POINT('',(-9.5E0,1.16E1,-2.2E1));
#331=VERTEX_POINT('',#329);
#332=VERTEX_POINT('',#330);
#333=CARTESIAN_POINT('',(-1.45E1,5.4E0,-2.2E1));
#334=CARTESIAN_POINT('',(-1.45E1,1.16E1,-2.2E1));
#335=VERTEX_POINT('',#333);
#336=VERTEX_POINT('',#334);
#337=CARTESIAN_POINT('',(0.E0,0.E0,0.E0));
#338=DIRECTION('',(0.E0,1.E0,0.E0));
#339=DIRECTION('',(1.E0,0.E0,0.E0));
#340=AXIS2_PLACEMENT_3D('',#337,#338,#339);
#341=PLANE('',#340);
#343=ORIENTED_EDGE('',*,*,#342,.T.);
#345=ORIENTED_EDGE('',*,*,#344,.T.);
#347=ORIENTED_EDGE('',*,*,#346,.T.);
#349=ORIENTED_EDGE('',*,*,#348,.T.);
#351=ORIENTED_EDGE('',*,*,#350,.T.);
#353=ORIENTED_EDGE('',*,*,#352,.T.);
#355=ORIENTED_EDGE('',*,*,#354,.T.);
#357=ORIENTED_EDGE('',*,*,#356,.T.);
#359=ORIENTED_EDGE('',*,*,#358,.T.);
#361=ORIENTED_EDGE('',*,*,#360,.T.);
#363=ORIENTED_EDGE('',*,*,#362,.T.);
#365=ORIENTED_EDGE('',*,*,#364,.T.);
#366=EDGE_LOOP('',(#343,#345,#347,#349,#351,#353,#355,#357,#359,#361,#363,
#365));
#367=FACE_OUTER_BOUND('',#366,.F.);
#369=CARTESIAN_POINT('',(-2.95E1,0.E0,0.E0));
#370=DIRECTION('',(0.E0,0.E0,1.E0));
#371=DIRECTION('',(1.E0,0.E0,0.E0));
#372=AXIS2_PLACEMENT_3D('',#369,#370,#371);
#373=PLANE('',#372);
#374=ORIENTED_EDGE('',*,*,#342,.F.);
#376=ORIENTED_EDGE('',*,*,#375,.T.);
#378=ORIENTED_EDGE('',*,*,#377,.T.);
#380=ORIENTED_EDGE('',*,*,#379,.F.);
#381=EDGE_LOOP('',(#374,#376,#378,#380));
#382=FACE_OUTER_BOUND('',#381,.F.);
#384=ORIENTED_EDGE('',*,*,#383,.F.);
#386=ORIENTED_EDGE('',*,*,#385,.F.);
#387=EDGE_LOOP('',(#384,#386));
#388=FACE_BOUND('',#387,.F.);
#390=ORIENTED_EDGE('',*,*,#389,.F.);
#392=ORIENTED_EDGE('',*,*,#391,.F.);
#393=EDGE_LOOP('',(#390,#392));
#394=FACE_BOUND('',#393,.F.);
#396=CARTESIAN_POINT('',(-2.95E1,0.E0,-5.E0));
#397=DIRECTION('',(-1.E0,0.E0,0.E0));
#398=DIRECTION('',(0.E0,0.E0,1.E0));
#399=AXIS2_PLACEMENT_3D('',#396,#397,#398);
#400=PLANE('',#399);
#401=ORIENTED_EDGE('',*,*,#364,.F.);
#403=ORIENTED_EDGE('',*,*,#402,.T.);
#405=ORIENTED_EDGE('',*,*,#404,.T.);
#406=ORIENTED_EDGE('',*,*,#375,.F.);
#407=EDGE_LOOP('',(#401,#403,#405,#406));
#408=FACE_OUTER_BOUND('',#407,.F.);
#410=CARTESIAN_POINT('',(-1.45E1,0.E0,-5.E0));
#411=DIRECTION('',(0.E0,0.E0,-1.E0));
#412=DIRECTION('',(-1.E0,0.E0,0.E0));
#413=AXIS2_PLACEMENT_3D('',#410,#411,#412);
#414=PLANE('',#413);
#415=ORIENTED_EDGE('',*,*,#362,.F.);
#417=ORIENTED_EDGE('',*,*,#416,.T.);
#419=ORIENTED_EDGE('',*,*,#418,.T.);
#420=ORIENTED_EDGE('',*,*,#402,.F.);
#421=EDGE_LOOP('',(#415,#417,#419,#420));
#422=FACE_OUTER_BOUND('',#421,.F.);
#424=ORIENTED_EDGE('',*,*,#423,.T.);
#426=ORIENTED_EDGE('',*,*,#425,.T.);
#427=EDGE_LOOP('',(#424,#426));
#428=FACE_BOUND('',#427,.F.);
#430=CARTESIAN_POINT('',(-1.45E1,0.E0,-2.9E1));
#431=DIRECTION('',(-1.E0,0.E0,0.E0));
#432=DIRECTION('',(0.E0,0.E0,1.E0));
#433=AXIS2_PLACEMENT_3D('',#430,#431,#432);
#434=PLANE('',#433);
#435=ORIENTED_EDGE('',*,*,#360,.F.);
#437=ORIENTED_EDGE('',*,*,#436,.T.);
#439=ORIENTED_EDGE('',*,*,#438,.T.);
#440=ORIENTED_EDGE('',*,*,#416,.F.);
#441=EDGE_LOOP('',(#435,#437,#439,#440));
#442=FACE_OUTER_BOUND('',#441,.F.);
#444=ORIENTED_EDGE('',*,*,#443,.F.);
#446=ORIENTED_EDGE('',*,*,#445,.F.);
#447=EDGE_LOOP('',(#444,#446));
#448=FACE_BOUND('',#447,.F.);
#450=CARTESIAN_POINT('',(-9.5E0,0.E0,-2.9E1));
#451=DIRECTION('',(0.E0,0.E0,-1.E0));
#452=DIRECTION('',(-1.E0,0.E0,0.E0));
#453=AXIS2_PLACEMENT_3D('',#450,#451,#452);
#454=PLANE('',#453);
#455=ORIENTED_EDGE('',*,*,#358,.F.);
#457=ORIENTED_EDGE('',*,*,#456,.T.);
#459=ORIENTED_EDGE('',*,*,#458,.T.);
#460=ORIENTED_EDGE('',*,*,#436,.F.);
#461=EDGE_LOOP('',(#455,#457,#459,#460));
#462=FACE_OUTER_BOUND('',#461,.F.);
#464=CARTESIAN_POINT('',(-9.5E0,0.E0,-5.E0));
#465=DIRECTION('',(1.E0,0.E0,0.E0));
#466=DIRECTION('',(0.E0,0.E0,-1.E0));
#467=AXIS2_PLACEMENT_3D('',#464,#465,#466);
#468=PLANE('',#467);
#469=ORIENTED_EDGE('',*,*,#356,.F.);
#471=ORIENTED_EDGE('',*,*,#470,.T.);
#473=ORIENTED_EDGE('',*,*,#472,.T.);
#474=ORIENTED_EDGE('',*,*,#456,.F.);
#475=EDGE_LOOP('',(#469,#471,#473,#474));
#476=FACE_OUTER_BOUND('',#475,.F.);
#478=ORIENTED_EDGE('',*,*,#477,.T.);
#480=ORIENTED_EDGE('',*,*,#479,.T.);
#481=EDGE_LOOP('',(#478,#480));
#482=FACE_BOUND('',#481,.F.);
#484=CARTESIAN_POINT('',(9.5E0,0.E0,-5.E0));
#485=DIRECTION('',(0.E0,0.E0,-1.E0));
#486=DIRECTION('',(-1.E0,0.E0,0.E0));
#487=AXIS2_PLACEMENT_3D('',#484,#485,#486);
#488=PLANE('',#487);
#489=ORIENTED_EDGE('',*,*,#354,.F.);
#491=ORIENTED_EDGE('',*,*,#490,.T.);
#493=ORIENTED_EDGE('',*,*,#492,.T.);
#494=ORIENTED_EDGE('',*,*,#470,.F.);
#495=EDGE_LOOP('',(#489,#491,#493,#494));
#496=FACE_OUTER_BOUND('',#495,.F.);
#498=CARTESIAN_POINT('',(9.5E0,0.E0,-2.9E1));
#499=DIRECTION('',(-1.E0,0.E0,0.E0));
#500=DIRECTION('',(0.E0,0.E0,1.E0));
#501=AXIS2_PLACEMENT_3D('',#498,#499,#500);
#502=PLANE('',#501);
#503=ORIENTED_EDGE('',*,*,#352,.F.);
#505=ORIENTED_EDGE('',*,*,#504,.T.);
#507=ORIENTED_EDGE('',*,*,#506,.T.);
#508=ORIENTED_EDGE('',*,*,#490,.F.);
#509=EDGE_LOOP('',(#503,#505,#507,#508));
#510=FACE_OUTER_BOUND('',#509,.F.);
#512=ORIENTED_EDGE('',*,*,#511,.F.);
#514=ORIENTED_EDGE('',*,*,#513,.F.);
#515=EDGE_LOOP('',(#512,#514));
#516=FACE_BOUND('',#515,.F.);
#518=CARTESIAN_POINT('',(1.45E1,0.E0,-2.9E1));
#519=DIRECTION('',(0.E0,0.E0,-1.E0));
#520=DIRECTION('',(-1.E0,0.E0,0.E0));
#521=AXIS2_PLACEMENT_3D('',#518,#519,#520);
#522=PLANE('',#521);
#523=ORIENTED_EDGE('',*,*,#350,.F.);
#525=ORIENTED_EDGE('',*,*,#524,.T.);
#527=ORIENTED_EDGE('',*,*,#526,.T.);
#528=ORIENTED_EDGE('',*,*,#504,.F.);
#529=EDGE_LOOP('',(#523,#525,#527,#528));
#530=FACE_OUTER_BOUND('',#529,.F.);
#532=CARTESIAN_POINT('',(1.45E1,0.E0,-5.E0));
#533=DIRECTION('',(1.E0,0.E0,0.E0));
#534=DIRECTION('',(0.E0,0.E0,-1.E0));
#535=AXIS2_PLACEMENT_3D('',#532,#533,#534);
#536=PLANE('',#535);
#537=ORIENTED_EDGE('',*,*,#348,.F.);
#539=ORIENTED_EDGE('',*,*,#538,.T.);
#541=ORIENTED_EDGE('',*,*,#540,.T.);
#542=ORIENTED_EDGE('',*,*,#524,.F.);
#543=EDGE_LOOP('',(#537,#539,#541,#542));
#544=FACE_OUTER_BOUND('',#543,.F.);
#546=ORIENTED_EDGE('',*,*,#545,.T.);
#548=ORIENTED_EDGE('',*,*,#547,.T.);
#549=EDGE_LOOP('',(#546,#548));
#550=FACE_BOUND('',#549,.F.);
#552=CARTESIAN_POINT('',(2.95E1,0.E0,-5.E0));
#553=DIRECTION('',(0.E0,0.E0,-1.E0));
#554=DIRECTION('',(-1.E0,0.E0,0.E0));
#555=AXIS2_PLACEMENT_3D('',#552,#553,#554);
#556=PLANE('',#555);
#557=ORIENTED_EDGE('',*,*,#346,.F.);
#559=ORIENTED_EDGE('',*,*,#558,.T.);
#561=ORIENTED_EDGE('',*,*,#560,.T.);
#562=ORIENTED_EDGE('',*,*,#538,.F.);
#563=EDGE_LOOP('',(#557,#559,#561,#562));
#564=FACE_OUTER_BOUND('',#563,.F.);
#566=ORIENTED_EDGE('',*,*,#565,.T.);
#568=ORIENTED_EDGE('',*,*,#567,.T.);
#569=EDGE_LOOP('',(#566,#568));
#570=FACE_BOUND('',#569,.F.);
#572=CARTESIAN_POINT('',(2.95E1,0.E0,0.E0));
#573=DIRECTION('',(1.E0,0.E0,0.E0));
#574=DIRECTION('',(0.E0,0.E0,-1.E0));
#575=AXIS2_PLACEMENT_3D('',#572,#573,#574);
#576=PLANE('',#575);
#577=ORIENTED_EDGE('',*,*,#344,.F.);
#578=ORIENTED_EDGE('',*,*,#379,.T.);
#580=ORIENTED_EDGE('',*,*,#579,.T.);
#581=ORIENTED_EDGE('',*,*,#558,.F.);
#582=EDGE_LOOP('',(#577,#578,#580,#581));
#583=FACE_OUTER_BOUND('',#582,.F.);
#585=CARTESIAN_POINT('',(0.E0,1.7E1,0.E0));
#586=DIRECTION('',(0.E0,1.E0,0.E0));
#587=DIRECTION('',(1.E0,0.E0,0.E0));
#588=AXIS2_PLACEMENT_3D('',#585,#586,#587);
#589=PLANE('',#588);
#590=ORIENTED_EDGE('',*,*,#377,.F.);
#591=ORIENTED_EDGE('',*,*,#404,.F.);
#592=ORIENTED_EDGE('',*,*,#418,.F.);
#593=ORIENTED_EDGE('',*,*,#438,.F.);
#594=ORIENTED_EDGE('',*,*,#458,.F.);
#595=ORIENTED_EDGE('',*,*,#472,.F.);
#596=ORIENTED_EDGE('',*,*,#492,.F.);
#597=ORIENTED_EDGE('',*,*,#506,.F.);
#598=ORIENTED_EDGE('',*,*,#526,.F.);
#599=ORIENTED_EDGE('',*,*,#540,.F.);
#600=ORIENTED_EDGE('',*,*,#560,.F.);
#601=ORIENTED_EDGE('',*,*,#579,.F.);
#602=EDGE_LOOP('',(#590,#591,#592,#593,#594,#595,#596,#597,#598,#599,#600,
#601));
#603=FACE_OUTER_BOUND('',#602,.F.);
#605=CARTESIAN_POINT('',(2.2E1,8.5E0,-5.E0));
#606=DIRECTION('',(0.E0,0.E0,-1.E0));
#607=DIRECTION('',(1.E0,0.E0,0.E0));
#608=AXIS2_PLACEMENT_3D('',#605,#606,#607);
#609=CYLINDRICAL_SURFACE('',#608,3.5E0);
#610=ORIENTED_EDGE('',*,*,#389,.T.);
#612=ORIENTED_EDGE('',*,*,#611,.F.);
#613=ORIENTED_EDGE('',*,*,#565,.F.);
#615=ORIENTED_EDGE('',*,*,#614,.T.);
#616=EDGE_LOOP('',(#610,#612,#613,#615));
#617=FACE_OUTER_BOUND('',#616,.F.);
#619=CARTESIAN_POINT('',(2.2E1,8.5E0,-5.E0));
#620=DIRECTION('',(0.E0,0.E0,-1.E0));
#621=DIRECTION('',(1.E0,0.E0,0.E0));
#622=AXIS2_PLACEMENT_3D('',#619,#620,#621);
#623=CYLINDRICAL_SURFACE('',#622,3.5E0);
#624=ORIENTED_EDGE('',*,*,#391,.T.);
#625=ORIENTED_EDGE('',*,*,#614,.F.);
#626=ORIENTED_EDGE('',*,*,#567,.F.);
#627=ORIENTED_EDGE('',*,*,#611,.T.);
#628=EDGE_LOOP('',(#624,#625,#626,#627));
#629=FACE_OUTER_BOUND('',#628,.F.);
#631=CARTESIAN_POINT('',(1.45E1,8.5E0,-2.2E1));
#632=DIRECTION('',(1.E0,0.E0,0.E0));
#633=DIRECTION('',(0.E0,-1.E0,0.E0));
#634=AXIS2_PLACEMENT_3D('',#631,#632,#633);
#635=CYLINDRICAL_SURFACE('',#634,3.1E0);
#636=ORIENTED_EDGE('',*,*,#545,.F.);
#638=ORIENTED_EDGE('',*,*,#637,.T.);
#639=ORIENTED_EDGE('',*,*,#511,.T.);
#641=ORIENTED_EDGE('',*,*,#640,.F.);
#642=EDGE_LOOP('',(#636,#638,#639,#641));
#643=FACE_OUTER_BOUND('',#642,.F.);
#645=CARTESIAN_POINT('',(1.45E1,8.5E0,-2.2E1));
#646=DIRECTION('',(1.E0,0.E0,0.E0));
#647=DIRECTION('',(0.E0,-1.E0,0.E0));
#648=AXIS2_PLACEMENT_3D('',#645,#646,#647);
#649=CYLINDRICAL_SURFACE('',#648,3.1E0);
#650=ORIENTED_EDGE('',*,*,#477,.F.);
#652=ORIENTED_EDGE('',*,*,#651,.T.);
#653=ORIENTED_EDGE('',*,*,#443,.T.);
#655=ORIENTED_EDGE('',*,*,#654,.F.);
#656=EDGE_LOOP('',(#650,#652,#653,#655));
#657=FACE_OUTER_BOUND('',#656,.F.);
#659=CARTESIAN_POINT('',(1.45E1,8.5E0,-2.2E1));
#660=DIRECTION('',(1.E0,0.E0,0.E0));
#661=DIRECTION('',(0.E0,-1.E0,0.E0));
#662=AXIS2_PLACEMENT_3D('',#659,#660,#661);
#663=CYLINDRICAL_SURFACE('',#662,3.1E0);
#664=ORIENTED_EDGE('',*,*,#547,.F.);
#665=ORIENTED_EDGE('',*,*,#640,.T.);
#666=ORIENTED_EDGE('',*,*,#513,.T.);
#667=ORIENTED_EDGE('',*,*,#637,.F.);
#668=EDGE_LOOP('',(#664,#665,#666,#667));
#669=FACE_OUTER_BOUND('',#668,.F.);
#671=CARTESIAN_POINT('',(1.45E1,8.5E0,-2.2E1));
#672=DIRECTION('',(1.E0,0.E0,0.E0));
#673=DIRECTION('',(0.E0,-1.E0,0.E0));
#674=AXIS2_PLACEMENT_3D('',#671,#672,#673);
#675=CYLINDRICAL_SURFACE('',#674,3.1E0);
#676=ORIENTED_EDGE('',*,*,#479,.F.);
#677=ORIENTED_EDGE('',*,*,#654,.T.);
#678=ORIENTED_EDGE('',*,*,#445,.T.);
#679=ORIENTED_EDGE('',*,*,#651,.F.);
#680=EDGE_LOOP('',(#676,#677,#678,#679));
#681=FACE_OUTER_BOUND('',#680,.F.);
#683=CARTESIAN_POINT('',(-2.2E1,8.5E0,-5.E0));
#684=DIRECTION('',(0.E0,0.E0,-1.E0));
#685=DIRECTION('',(1.E0,0.E0,0.E0));
#686=AXIS2_PLACEMENT_3D('',#683,#684,#685);
#687=CYLINDRICAL_SURFACE('',#686,3.5E0);
#688=ORIENTED_EDGE('',*,*,#383,.T.);
#690=ORIENTED_EDGE('',*,*,#689,.F.);
#691=ORIENTED_EDGE('',*,*,#423,.F.);
#693=ORIENTED_EDGE('',*,*,#692,.T.);
#694=EDGE_LOOP('',(#688,#690,#691,#693));
#695=FACE_OUTER_BOUND('',#694,.F.);
#697=CARTESIAN_POINT('',(-2.2E1,8.5E0,-5.E0));
#698=DIRECTION('',(0.E0,0.E0,-1.E0));
#699=DIRECTION('',(1.E0,0.E0,0.E0));
#700=AXIS2_PLACEMENT_3D('',#697,#698,#699);
#701=CYLINDRICAL_SURFACE('',#700,3.5E0);
#702=ORIENTED_EDGE('',*,*,#385,.T.);
#703=ORIENTED_EDGE('',*,*,#692,.F.);
#704=ORIENTED_EDGE('',*,*,#425,.F.);
#705=ORIENTED_EDGE('',*,*,#689,.T.);
#706=EDGE_LOOP('',(#702,#703,#704,#705));
#707=FACE_OUTER_BOUND('',#706,.F.);
#709=CLOSED_SHELL('',(#368,#395,#409,#429,#449,#463,#483,#497,#517,#531,#551,
#571,#584,#604,#618,#630,#644,#658,#670,#682,#696,#708));
#710=MANIFOLD_SOLID_BREP('',#709);
#711=(LENGTH_UNIT()NAMED_UNIT(*)SI_UNIT(.MILLI.,.METRE.));
#712=DIMENSIONAL_EXPONENTS(0.E0,0.E0,0.E0,0.E0,0.E0,0.E0,0.E0);
#713=(NAMED_UNIT(*)PLANE_ANGLE_UNIT()SI_UNIT($,.RADIAN.));
#714=PLANE_ANGLE_MEASURE_WITH_UNIT(PLANE_ANGLE_MEASURE(1.745329251994E-2),#713);
#715=(CONVERSION_BASED_UNIT('DEGREE',#714)NAMED_UNIT(#712)PLANE_ANGLE_UNIT());
#716=(NAMED_UNIT(*)SI_UNIT($,.STERADIAN.)SOLID_ANGLE_UNIT());
#717=UNCERTAINTY_MEASURE_WITH_UNIT(LENGTH_MEASURE(6.790162831168E-3),#711,
'closure',
'Maximum model space distance between geometric entities at asserted connectivities');
#720=APPLICATION_CONTEXT(
'CONFIGURATION CONTROLLED 3D DESIGNS OF MECHANICAL PARTS AND ASSEMBLIES');
#721=APPLICATION_PROTOCOL_DEFINITION('international standard',
'config_control_design',1994,#720);
#722=DESIGN_CONTEXT('',#720,'design');
#723=MECHANICAL_CONTEXT('',#720,'mechanical');
#724=PRODUCT('ZJ-11','ZJ-11','NOT SPECIFIED',(#723));
#725=PRODUCT_DEFINITION_FORMATION_WITH_SPECIFIED_SOURCE('2','LAST_VERSION',#724,
.MADE.);
#729=PRODUCT_CATEGORY('part','');
#730=PRODUCT_RELATED_PRODUCT_CATEGORY('detail','',(#724));
#731=PRODUCT_CATEGORY_RELATIONSHIP('','',#729,#730);
#732=SECURITY_CLASSIFICATION_LEVEL('unclassified');
#733=SECURITY_CLASSIFICATION('','',#732);
#734=CC_DESIGN_SECURITY_CLASSIFICATION(#733,(#725));
#735=APPROVAL_STATUS('approved');
#736=APPROVAL(#735,'');
#737=CC_DESIGN_APPROVAL(#736,(#733,#725,#726));
#738=CALENDAR_DATE(122,22,3);
#739=COORDINATED_UNIVERSAL_TIME_OFFSET(8,0,.AHEAD.);
#740=LOCAL_TIME(21,27,3.9E1,#739);
#741=DATE_AND_TIME(#738,#740);
#742=APPROVAL_DATE_TIME(#741,#736);
#743=DATE_TIME_ROLE('creation_date');
#744=CC_DESIGN_DATE_AND_TIME_ASSIGNMENT(#741,#743,(#726));
#745=DATE_TIME_ROLE('classification_date');
#746=CC_DESIGN_DATE_AND_TIME_ASSIGNMENT(#741,#745,(#733));
#747=PERSON('UNSPECIFIED','UNSPECIFIED',$,$,$,$);
#748=ORGANIZATION('UNSPECIFIED','UNSPECIFIED','UNSPECIFIED');
#749=PERSON_AND_ORGANIZATION(#747,#748);
#750=APPROVAL_ROLE('approver');
#751=APPROVAL_PERSON_ORGANIZATION(#749,#736,#750);
#752=PERSON_AND_ORGANIZATION_ROLE('creator');
#753=CC_DESIGN_PERSON_AND_ORGANIZATION_ASSIGNMENT(#749,#752,(#725,#726));
#754=PERSON_AND_ORGANIZATION_ROLE('design_supplier');
#755=CC_DESIGN_PERSON_AND_ORGANIZATION_ASSIGNMENT(#749,#754,(#725));
#756=PERSON_AND_ORGANIZATION_ROLE('classification_officer');
#757=CC_DESIGN_PERSON_AND_ORGANIZATION_ASSIGNMENT(#749,#756,(#733));
#758=PERSON_AND_ORGANIZATION_ROLE('design_owner');
#759=CC_DESIGN_PERSON_AND_ORGANIZATION_ASSIGNMENT(#749,#758,(#724));
#57=CIRCLE('',#56,3.5E0);
#62=CIRCLE('',#61,3.5E0);
#67=CIRCLE('',#66,3.5E0);
#72=CIRCLE('',#71,3.5E0);
#85=CIRCLE('',#84,3.5E0);
#90=CIRCLE('',#89,3.5E0);
#99=CIRCLE('',#98,3.1E0);
#104=CIRCLE('',#103,3.1E0);
#117=CIRCLE('',#116,3.1E0);
#122=CIRCLE('',#121,3.1E0);
#135=CIRCLE('',#134,3.1E0);
#140=CIRCLE('',#139,3.1E0);
#153=CIRCLE('',#152,3.1E0);
#158=CIRCLE('',#157,3.1E0);
#167=CIRCLE('',#166,3.5E0);
#172=CIRCLE('',#171,3.5E0);
#342=EDGE_CURVE('',#259,#260,#4,.T.);
#344=EDGE_CURVE('',#260,#262,#8,.T.);
#346=EDGE_CURVE('',#262,#264,#12,.T.);
#348=EDGE_CURVE('',#264,#266,#16,.T.);
#350=EDGE_CURVE('',#266,#268,#20,.T.);
#352=EDGE_CURVE('',#268,#270,#24,.T.);
#354=EDGE_CURVE('',#270,#272,#28,.T.);
#356=EDGE_CURVE('',#272,#274,#32,.T.);
#358=EDGE_CURVE('',#274,#276,#36,.T.);
#360=EDGE_CURVE('',#276,#278,#40,.T.);
#362=EDGE_CURVE('',#278,#280,#44,.T.);
#364=EDGE_CURVE('',#280,#259,#48,.T.);
#368=ADVANCED_FACE('',(#367),#341,.F.);
#375=EDGE_CURVE('',#259,#283,#52,.T.);
#377=EDGE_CURVE('',#283,#284,#180,.T.);
#379=EDGE_CURVE('',#260,#284,#176,.T.);
#383=EDGE_CURVE('',#307,#308,#57,.T.);
#385=EDGE_CURVE('',#308,#307,#62,.T.);
#389=EDGE_CURVE('',#311,#312,#67,.T.);
#391=EDGE_CURVE('',#312,#311,#72,.T.);
#395=ADVANCED_FACE('',(#382,#388,#394),#373,.T.);
#402=EDGE_CURVE('',#280,#304,#76,.T.);
#404=EDGE_CURVE('',#304,#283,#184,.T.);
#409=ADVANCED_FACE('',(#408),#400,.T.);
#416=EDGE_CURVE('',#278,#302,#80,.T.);
#418=EDGE_CURVE('',#302,#304,#188,.T.);
#423=EDGE_CURVE('',#319,#320,#85,.T.);
#425=EDGE_CURVE('',#320,#319,#90,.T.);
#429=ADVANCED_FACE('',(#422,#428),#414,.T.);
#436=EDGE_CURVE('',#276,#300,#94,.T.);
#438=EDGE_CURVE('',#300,#302,#192,.T.);
#443=EDGE_CURVE('',#335,#336,#99,.T.);
#445=EDGE_CURVE('',#336,#335,#104,.T.);
#449=ADVANCED_FACE('',(#442,#448),#434,.T.);
#456=EDGE_CURVE('',#274,#298,#108,.T.);
#458=EDGE_CURVE('',#298,#300,#196,.T.);
#463=ADVANCED_FACE('',(#462),#454,.T.);
#470=EDGE_CURVE('',#272,#296,#112,.T.);
#472=EDGE_CURVE('',#296,#298,#200,.T.);
#477=EDGE_CURVE('',#331,#332,#117,.T.);
#479=EDGE_CURVE('',#332,#331,#122,.T.);
#483=ADVANCED_FACE('',(#476,#482),#468,.T.);
#490=EDGE_CURVE('',#270,#294,#126,.T.);
#492=EDGE_CURVE('',#294,#296,#204,.T.);
#497=ADVANCED_FACE('',(#496),#488,.T.);
#504=EDGE_CURVE('',#268,#292,#130,.T.);
#506=EDGE_CURVE('',#292,#294,#208,.T.);
#511=EDGE_CURVE('',#327,#328,#135,.T.);
#513=EDGE_CURVE('',#328,#327,#140,.T.);
#517=ADVANCED_FACE('',(#510,#516),#502,.T.);
#524=EDGE_CURVE('',#266,#290,#144,.T.);
#526=EDGE_CURVE('',#290,#292,#212,.T.);
#531=ADVANCED_FACE('',(#530),#522,.T.);
#538=EDGE_CURVE('',#264,#288,#148,.T.);
#540=EDGE_CURVE('',#288,#290,#216,.T.);
#545=EDGE_CURVE('',#323,#324,#153,.T.);
#547=EDGE_CURVE('',#324,#323,#158,.T.);
#551=ADVANCED_FACE('',(#544,#550),#536,.T.);
#558=EDGE_CURVE('',#262,#286,#162,.T.);
#560=EDGE_CURVE('',#286,#288,#220,.T.);
#565=EDGE_CURVE('',#315,#316,#167,.T.);
#567=EDGE_CURVE('',#316,#315,#172,.T.);
#571=ADVANCED_FACE('',(#564,#570),#556,.T.);
#579=EDGE_CURVE('',#284,#286,#224,.T.);
#584=ADVANCED_FACE('',(#583),#576,.T.);
#604=ADVANCED_FACE('',(#603),#589,.T.);
#611=EDGE_CURVE('',#316,#312,#232,.T.);
#614=EDGE_CURVE('',#315,#311,#228,.T.);
#618=ADVANCED_FACE('',(#617),#609,.F.);
#630=ADVANCED_FACE('',(#629),#623,.F.);
#637=EDGE_CURVE('',#323,#327,#236,.T.);
#640=EDGE_CURVE('',#324,#328,#244,.T.);
#644=ADVANCED_FACE('',(#643),#635,.F.);
#651=EDGE_CURVE('',#331,#335,#240,.T.);
#654=EDGE_CURVE('',#332,#336,#248,.T.);
#658=ADVANCED_FACE('',(#657),#649,.F.);
#670=ADVANCED_FACE('',(#669),#663,.F.);
#682=ADVANCED_FACE('',(#681),#675,.F.);
#689=EDGE_CURVE('',#320,#308,#256,.T.);
#692=EDGE_CURVE('',#319,#307,#252,.T.);
#696=ADVANCED_FACE('',(#695),#687,.F.);
#708=ADVANCED_FACE('',(#707),#701,.F.);
#718=(GEOMETRIC_REPRESENTATION_CONTEXT(3)GLOBAL_UNCERTAINTY_ASSIGNED_CONTEXT((
#717))GLOBAL_UNIT_ASSIGNED_CONTEXT((#711,#715,#716))REPRESENTATION_CONTEXT
('ID1','3'));
#719=ADVANCED_BREP_SHAPE_REPRESENTATION('',(#710),#718);
#726=PRODUCT_DEFINITION('design','',#725,#722);
#727=PRODUCT_DEFINITION_SHAPE('','SHAPE FOR ZJ-11.',#726);
#728=SHAPE_DEFINITION_REPRESENTATION(#727,#719);
ENDSEC;
END-ISO-10303-21;
